At The Drive - Fahrenheit Bass tab download free or play online

Bass tab for Fahrenheit by At The Drive free download and read or play online: file .txt, 1.39 kb has 69 views and 0 downloads.

Download bass tab "Fahrenheit" (At The Drive)

At The Drive Band name
Fahrenheit Song name
Bass tabs Tab type
1.39 kb File size
.TXT File type
69 views
0 downloads
 
Are you robot?

Fahrenheit bass tab read and play online

                    Fahrenheit      
At The Drive-In
off El Gran Orgo

E,A,D,G

verse           6 times
----------------------------.---|
2-2-2-----------------------2---|
------2-2-2-2-5-5-5-5-4-4-4-----|
--------------------------------|

verse ending    once
--------------------------------|
2-2-2---------0-----------------|
------2-2-2-2-------------------|
--------------------------------|

chorus       twice
------------------------------------------
------------------------------------------
------------------------------------------
0-12-12-0-12-12-0-12-12-0-12-12-0-12-12-12

---------------------------------------|
---------------------------------------|
---------------------------------------|
10-10-10-10-10---10-10-8-8-8-8-8---8-8-|

verse 4 times

chorus 4 times

chorus 4 times during quiet part

screaming part    4 times
------------------------|
------------------------|
------------------------|
12--12--12--12--10/12---|

chorus twice

verse 3 times

verse ending once

screaming part once

phkd@email.com
if you want a specific atd-i song 
tabbed, let me know and ill tell 
you if i can.                    

Comments for bass tab — Fahrenheit (At The Drive)

Other Fahrenheit by At The Drive tabs:

Last viewed At The Drive tabs: