At The Drive - Enfilade Bass tab download free or play online

Bass tab for Enfilade by At The Drive free download and read or play online: file .txt, 2.26 kb has 65 views and 0 downloads.

Download bass tab "Enfilade" (At The Drive)

At The Drive Band name
Enfilade Song name
Bass tabs Tab type
2.26 kb File size
.TXT File type
65 views
0 downloads
 
Are you robot?

Enfilade bass tab read and play online

                    ARTIST : AT THE DRIVE-IN
SONG TITLE : ENFILADE
ALBUM : RELATIONSHIP OF COMMAND
BASSIST : PAUL HINOJOS
TABBED BY : CHRISTOPHER "CRIPPY" HIGGINS
E-MAIL : crippy18@hotmail.com
N.B. ~ means hammer-on

Bass starts at about 0:43

1ST PART

G ----------------------------------------------------------------------
D ----------------------------------------------------------------------
A -----------------------------7--5-5-5-5-5-5-5-5-0---------------------
E -5~7--7-7-7-7--5~7--7-7-7-7------------------------5-5-5-5-5-5--3-----

Play this 8 times then ....

2ND PART

G ---------------------------------------------------
D ---------------------------------------------------
A ------------------------777--5-5-55----------------
E ---7--7--77--7--77-77-7---------------5-5-5-5-5--3-

in a stacatto style. Play it twice.

then the CHORUS ......

G ------------------------------------------------------
D ------------------------------------------------------
A -----------------------------------------77-5-75-75---
E ---7-7-7-7-7----3-3-3-3-3---0-0-0-0-0-0---------------

play 4 times.

Then back to first bit, play it 8 times,
then straight to chorus, playing that 4 times.
Then play this ......

TRANSITION BIT

G -----------------------------------------
D -----------------------------------------
A ------5---7-5---7-5---------5------------
E ---7--------------------7---------5------

Do that twice.

Then rest, from about 3:10 to 3:20,
then play second bit (stacatto) 4 times.
Then play chorus to end (around 4:30)

FORMAT

FIRST PART 	X 8
SECOND PART 	X 2
CHORUS 		X 4
FIRST PART 	X 8
CHORUS 		X 4
TRANSITION BIT 	X 2
REST (FROM 3:10 TO 3:20 ON THE C.D, APPROXIMATELY)
SECOND BIT 	X 4
CHORUS 		X LOTS UNTIL END

and that's it!! work on the rythym, once you've got it it's fine,
and good fun to play. if there are any mistakes in this,
please e-mail me corrections. Thanks, Crippy.

Corrected chorus part - thanks to Jason Haughey for that !!!
other corrected parts by moi, Crippy !                    

Comments for bass tab — Enfilade (At The Drive)

Other Enfilade by At The Drive tabs:

Last viewed At The Drive tabs: